Лев Хвоя
ноты и аккорды

Мы с тобой
(посвящение Фикусу)
Вступление:

 Am                Dm               E         C
-----------0---0---1----------------------0---0----------------
-1-------1-----------3------------------0---------1------------
---2---2---------------2--------------1-------------0----------
-----2-------------0-----0---0------------------------2--------
--------------------------------------------------3-----3---3--
------------------------------------0--------------------------

 E             Am                               G7
------------------------------------------------1--------------
-------0---0---1-------------1----1----------------------------
-----1-----------2-------------2----4--1-4--2------------------
---2---------------2-------------------------------------------
---------------0-----0---0----------------------2--------------
-0----------------------------------------------3--------------

     C      F         C       G
Полосатая ткань под рваной рубашкой,
    C    D7          C      G
Шампанское в расстреленной чашке.
  A(V)   G      F      G
Длинные тонкие черные нитки -
 C        D7      C
Мысли в моей голове.
   C       F     C        G
Дощатый забор - мат и листовки,
   C          D7        C       C
Любовь как горячка в немытой духовке.
 A(V)   G        F      G
Даже тебе я не сделаю скидки -
  C        D7        C
Моей нерожденной вдове.

Немного ума, чтоб остаться на месте,
Чтоб двигаться дальше - мне бы беленькой двести.
Не проще ли лечь, наплевать на идеи
И быть незаметным червем?
Конопля ума во дворе психбольницы
Слышит грохот упавшей на землю ресницы.
Эта гадость несет не мне не тебе
Надежду, что скоро умрем.

Эта гадость сейчас, эта гадость сегодня,
Эта гадость, которую с пола я поднял -
Это жизнь, это смерть, это то остальное,
Которое мне не найти.
Это небо, забор, этот ножик в крови,
Бутылка, которую мы раздавили...
Шоссе извивается словно хмельное
Начало другого пути.

             C                  F                 C     E
     Мы с тобой загнемся под одним забором, мой друг.
             C                  D7                G     E
     Мы с тобой загнемся под одним забором, мой друг.
             C                  F                 C     E
     Мы с тобой загнемся под одним забором, мой друг.
             C                  D7                G
     Мы с тобой загнемся под одним забором, мой друг.

         C            Dm        G         C
   Мой друг, давай встанем, пойдем, прогуляемся,
    C7      A      Dm  
   Выпьем еще и споем.
   О том, на что надеемся, о том, где мы мотаемся
   Ночью в потемках вдвоем.
   
Я хочу, чтоб сейчас, я хочу, чтоб сегодня
Нашелся хоть кто-то, кто что-нибудь понял,
Чтоб длинная тонкая черная нитка
Вдруг превратилась в две.
Прислушайтесь, небо под шиферной крышей
Живое - оно ест, оно пьет, оно дишит.
Асфальт - это просто его визитка,
А лужа - дыра в голове.

     Мы с тобой загнемся под одним забором, мой друг.
     Мы с тобой загнемся под одним забором, мой друг.
     Мы с тобой загнемся под одним забором, мой друг.
             C                  D7           A    A     
     Мы с тобой загнемся под одним забором, мой друг.